Creedence Online Forum

Go Back   Creedence Online Forum > Tablatures

Notices

Tablatures Creedence Clearwater Revival's tablatures discussion and guitar playing as well

Reply
 
Thread Tools Display Modes
  #1  
Old 11.07.2002, 05:57
Anonymous
Guest
 
Posts: n/a
Default

Who can help me with the REAL bass tab for Proud Mary.
Reply With Quote
  #2  
Old 25.07.2002, 17:11
Anonymous
Guest
 
Posts: n/a
Default

From gui.braize@caramail.com

- Proud Mary –
-Creedence Clearwater Revival –
- submitted by Guillaume (gui.braize@caramail.com) -


Intro:

G|-555-222-555-222-555-20----------|
D|-----------------------3-33-3----|
A|---------------------------5-5---|
E|---------------------------------|

Verse:

G|------------|
D|------------|
A|-5---5-5-5--|x9
E|------------|

D|--------------------------------------|
G|-567-7-----7-7---789-9-----9-9---9h7--|
A|-------7-7-----7-------9-9-----9------|
E|--------------------------------------|

Chorus:

G|-----------|
D|-----------|
A|-5--55--5--|x4
E|-----------|

Verse
Chorus
Intro
Verse (Guitar solo)
Chorus
Intro
Verse
Chorus
Chorus
Chorus

I think it's some thing like that!

enjoi!
Reply With Quote
  #3  
Old 25.12.2003, 05:06
Sabbath
Guest
 
Posts: n/a
Default

Proud Mary
Creedence Clearwater Revival
TablEdited by Jan Bjorklund
Tuning : E A D G Time Signature: 4/4
tempo 118 | | | | | |
|--------------------------------|--------------------------------|
|--------------------------------|--------------------------------|
|3---3---------------------------|3---3---------------------------|
|------------5-------5---5---0---|------------5-------5---5---0---|
| | | | | | | |
|--------------------------------|--------------------------------|
|--------------------5-------3---|----3---3-------3---------------|
|3---3---------------------------|------------5-----------5-------|
|------------5-------------------|--------------------------------|
| | | | | | | |
|--------------------------------|--------------------------------|
|--------------------------------|--------------------------------|
|5-----------5---5---5-----------|5-----------5---5---5-----------|
|--------------------------------|----------------------------5---|
'Left a good job|in the | city | | |
|--------------------------------|--------------------------------|
|--------------------------------|--------------------------------|
|5-----------5---5---5---5-------|5-----------5---5---5---5-------|
|--------------------------------|--------------------------------|
workin' for the man every night and day | |
|--------------------------------|--------------------------------|
|--------------------------------|--------------------------------|
|5-----------5---5---5---5-------|5-----------5---5---5-----------|
|--------------------------------|----------------------------5---|
and I never lost|a | minute of speed when |
|--------------------------------|--------------------------------|
|--------------------------------|--------------------------------|
|5-----------5---5---5---5-------|5-----------5---5---5---5-------|
|--------------------------------|--------------------------------|
worryin'|'bout the way things | might have|been |
|--------------------------------|--------------------------------|
|--------------------------------|------------4-------5---5---6---|
|5-----------5---5---5---5-------|5---5---------------------------|
|--------------------------------|--------------------------------|
Big wheel keep on | burning | | |
|--------------------------------|--------------------------------|
|7-----------7-------------------|7-----------7-------------------|
|----------------7---------------|----------------7---7---7-------|
|--------------------------------|--------------------------------|
Proud Mary keep on | goin' | | |
|--------------------------------|--------------------------------|
|9-----------9-------------------|9---9-------9-------------------|
|----------------9---9---9-------|----------------9---9-------9---|
|--------------------------------|--------------------------------|
rollin' | | | rollin' | | |
|--------------------------------|--------------------------------|
|--------------------------------|--------------------------------|
|5-----------5---5---5-------5---|5---5-------5---5---5-----------|
|--------------------------------|--------------------------------|
rollin' on the river | | | | |
|--------------------------------|--------------------------------|
|--------------------------------|------------4-------5---5---7---|
|5---5-------5---5---5-----------|5---5---------------------------|
|--------------------------------|--------------------------------|
| | | | | | | |
|--------------------------------|--------------------------------|
|--------------------------------|--------------------------------|
|5-----------5---5---5-----------|5-----------5---5---5---5-------|
|--------------------------------|--------------------------------|
| | | | | | | |
|--------------------------------|--------------------------------|
|--------------------------------|--------------------------------|
|5-----------5---5---5---5-------|5-----------5---5---5---5-------|
|--------------------------------|--------------------------------|
| | | | | | | |
|--------------------------------|--------------------------------|
|--------------------------------|--------------------------------|
|5-----------5---5---5---5-------|5-----------5---5---5-----------|
|--------------------------------|--------------------------------|
| | | | | | | |
|--------------------------------|--------------------------------|
|--------------------------------|------------4-------5---5---7---|
|5-----------5---5---5---5-------|5---5---------------------------|
|--------------------------------|--------------------------------|
| | | | | | | |
|--------------------------------|--------------------------------|
|7-----------7-------------------|7-----------7-----------7-------|
|----------------7---7-------7---|----------------7---7-------7---|
|--------------------------------|--------------------------------|
| | | | | | | |
|--------------------------------|--------------------------------|
|9-----------9-------------------|9---9-----------9---9-----------|
|----------------9---9-------9---|------------9---------------9---|
|--------------------------------|--------------------------------|
| | | | | | | |
|--------------------------------|--------------------------------|
|--------------------------------|--------------------------------|
|5-----------5---5---5-----------|5---5-------5---5---5-----------|
|--------------------------------|--------------------------------|
| | | | | | | |
|--------------------------------|--------------------------------|
|--------------------------------|--------------------------------|
|5---5-------5---5---5-----------|5---5-------5---5---5-------5---|
|--------------------------------|--------------------------------|
| | | | | | | |
|--------------------------------|--------------------------------|
|--------------------------------|--------------------------------|
|3---3---------------------------|3---3---------------------------|
|------------5-------5---5---0---|------------5-------5---5---0---|
| | | | | | | |
|--------------------------------|--------------------------------|
|--------------------5-------3---|----3---3-------3---------------|
|3---3---------------------------|------------5-----------5-------|
|------------5-------------------|--------------------------------|
| | | | | | | |
|--------------------------------|--------------------------------|
|--------------------------------|--------------------------------|
|5-----------5---5---5-----------|5---5-------5---5---5---5-------|
|--------------------------------|----------------------------5---|
| | | | | | | |
|--------------------------------|--------------------------------|
|--------------------------------|--------------------------------|
|5-----------5---5---5-----------|5-----------5---5---5---5-------|
|----------------------------5---|--------------------------------|

Created with TablEdit http://www.tabledit.com/
Reply With Quote
  #4  
Old 29.05.2012, 20:37
KennetRP KennetRP is offline
Junior Member
 
Join Date: May 2012
Location: Norway
Age: 21
Posts: 18
Thanks: 2
Thanked 0 Times in 0 Posts
Rep Power: 0
KennetRP is on a distinguished road
Default Proud Mary (correct TAB, sorry I did not include the variations)

Quote:
Originally Posted by Anonymous View Post
Who can help me with the REAL bass tab for Proud Mary.
Intro:
G-------------------| (x2)
D-------------------|
A-3-3---------------|
E---------5---------|

G-----------------------------------|
D-------------5---3---3-3---3-------|
A-3-3---------------------------5---|
E---------5--------------------------|

Main riff (very simple to play):
G---------------|
D---------------|
A-5---5-5------|
E-----------(5)-| (feel free to add some A-notes in between like Stu did)

G----------------|
D----------------|
A-5---5-5-5-----|
E----------------|

Pre-Chorus:
G-----------------|
D-------4---5---6-|
A-5-5-------------|
E-----------------|

Chorus:
G------------------------------------------------------|
D-7---7-------7---7--------9---9-------9---9----------|
A-------7-----------7------------9------------9-9---9-|
E------------------------------------------------------|

G---------------|-----------------|----------------|-----------------|
D---------------|-----------------|----------------|-------4---5---7-|
A-5---5-5-5----|-5-5---5-5-5----|-5-5---5-5-5----|-5-5-------------|
E---------------|-----------------|----------------|-----------------|
Reply With Quote
Reply

Tags
bass, tabs

Thread Tools
Display Modes

Posting Rules
You may not post new threads
You may not post replies
You may not post attachments
You may not edit your posts

BB code is On
Smilies are On
[IMG] code is On
HTML code is Off

Forum Jump


All times are GMT +4. The time now is 17:07.


Powered by vBulletin® Version 3.8.0
Copyright ©2000 - 2017, Jelsoft Enterprises Ltd.
Content Relevant URLs by YABBSEO v1.1