Creedence Online Forum

Go Back   Creedence Online Forum > Tablatures

Notices

Tablatures Creedence Clearwater Revival's tablatures discussion and guitar playing as well

Reply
 
Thread Tools Display Modes
  #1  
Old 17.12.2003, 10:32
Anonymous
Guest
 
Posts: n/a
Default

Who can help me with the real bass tab for Born on the Bayou?
Reply With Quote
  #2  
Old 25.12.2003, 11:53
Admin's Avatar
Admin Admin is offline
Administrator
 
Join Date: Sep 1998
Location: Solar system
Age: 35
Posts: 78
Thanks: 13
Thanked 4 Times in 3 Posts
Rep Power: 10
Admin has disabled reputation
Default

Really good site, but only in Russian.
Reply With Quote
  #3  
Old 18.01.2004, 18:34
Anonymous
Guest
 
Posts: n/a
Default

Anonymous
its a three note combe throught out the whole song very simple. you can throw in a couple changes if you want, but I don't.

G------------------------------------------------
D------------------------------------------------
A----7-7---5-----------------------------------
E---------------5--------------------------------
Reply With Quote
  #4  
Old 29.05.2012, 19:15
KennetRP KennetRP is offline
Junior Member
 
Join Date: May 2012
Location: Norway
Age: 17
Posts: 18
Thanks: 2
Thanked 0 Times in 0 Posts
Rep Power: 0
KennetRP is on a distinguished road
Default Born on the Bayou (bass TAB for the most important parts)

Quote:
Originally Posted by Anonymous View Post
Who can help me with the real bass tab for Born on the Bayou?
Intro:
G-----/-9-9-9-
D--------------
A--------------
E--------------

Main riff:
G----------------------------------
D----------------------------------
A-7-------------7---7--------------
E------7-9-7-9----------7-9-7-9-7-

Every verse except verse 2 begins with:
G-----------------------------------
D-----------------------------------
A-7---7----------7---7-------------
E----------7-7-9---------7-9-7-9-7-

Fill no. 1:
G----------------
D--------6-7-8-9-
A--7---7---------
E----------------

"E - D - A - E" part:
G-------------------------------------------------
D-------------------------------------------------
A-7-------------7---7---5-----------------------7-
E------7-9-7-9--------------5---3-0----7-9-7-9---

Fill no. 2:
G------------------------------------------------------------------
D---4-5-6-7--------------------------4-5-6-7----------------------
A-5---------5-6-7---7--------------5---------5-6-7----------------
E------------------------7-9-7-9-7------------------------7-9-7-9-

A part of the guitar solo (comes first after fill no. 2 in solo 1):
G--------------------------------
D-------------------------------- (x3)
A-7----------------------------7-
E--------7-7---0-------7---9-----

G---------------------------------------- (x1)
D----------------------------------------
A-7---7-------------------------------7-
E---7---------7-7---0---------7---9-----

(then back to main riff and play that 2x to finish of solo 1)

Fill no. 3: (I think)
G-------------------------------------------------
D-------------------------------------------------
A-5---5------------------------------4---5-6---7-
E---------5-5---0---4---5-6---7---7--------------

Outro licks:
G-------------------------99--9-9-
D-----------------------9----9-9--
A-7------------7---7--------------
E------7-9-7-9--------------------

G----------------------------------------9-9-------------
D-------------------------------------9-------9----------
A-7---5--------------------------7---------------7---5---
E----------7-5-3-0----0-4-5-6-7-------------------------

There are more near the fade out, but I haven't learned them yet.
Anyway, hope this helps everyone who is seeing it.
Reply With Quote
Reply

Tags
bass, bayou

Thread Tools
Display Modes

Posting Rules
You may not post new threads
You may not post replies
You may not post attachments
You may not edit your posts

BB code is On
Smilies are On
[IMG] code is On
HTML code is Off

Forum Jump


All times are GMT +4. The time now is 01:58.


Powered by vBulletin® Version 3.8.0
Copyright ©2000 - 2014, Jelsoft Enterprises Ltd.
Content Relevant URLs by YABBSEO v1.1