Creedence Online Forum

Creedence Online Forum (http://www.creedence-online.net/forum/index.php)
-   Tablatures (http://www.creedence-online.net/forum/forumdisplay.php?f=5)
-   -   Bass Tabs Commotion (http://www.creedence-online.net/forum/showthread.php?t=207)

Something 26.01.2005 02:36

I was owndering if anyone had the Bass Tabs to Commotion. I really would like to find them, but am struggling to. Thanks For The Help, Something

Anonymous 03.02.2005 04:43

It is in [url=http://www.xguitar.com]www.xguitar.com[/url] under creedence bass tabs.

Regards, Paul Australia

Something 18.03.2005 03:54

Hey, Thanx alot pal. That site is actually pretty nice. I've never heard of it, but I'm sure I'll be back. Thanx alot

Something

KennetRP 29.05.2012 04:09

Accurate TAB by me
 
[QUOTE=Something;739]I was owndering if anyone had the Bass Tabs to Commotion. I really would like to find them, but am struggling to. Thanks For The Help, Something[/QUOTE]

Intro:
G-------------------|
D-------------------|
A-------------------|
E-5---4---3---1---|

Riff for verse 1 and 3:
D-----7---6---5----|
A-5---------------8-|

Chorus:
A-5-5-5-5-5-5-5-5-5-5-5-5-5-5-5-5-|
E----------------------------------------5|

Verse 2 riff:
G------7------------|
D------------6-5----|
A-5---------------8-|

Guitar solo:
D------3------------| (x11)
A-5----------5-3---|
E-----------------5-|

D------3------------|
A-5----------5-3-4-|
E--------------------|

Outro:
D------3------------|
A-5----------5-3-5-|

D------4-------5-4-|
A-5----------5------

D------4---------5~~~~~-------------------------------------------|
A-5---------5---------------55555--55555--55555555~~~~~~~|


All times are GMT +4. The time now is 07:25.

Powered by vBulletin® Version 3.8.0
Copyright ©2000 - 2014, Jelsoft Enterprises Ltd.
Content Relevant URLs by YABBSEO v1.1