Thread: Pagan Baby
View Single Post
 
Old 29.05.2012, 03:39
KennetRP KennetRP is offline
Junior Member
 
Join Date: May 2012
Location: Norway
Age: 21
Posts: 18
Thanks: 2
Thanked 0 Times in 0 Posts
Rep Power: 0
KennetRP is on a distinguished road
Default The basic bass line

Quote:
Originally Posted by warwick16 View Post
HI,
looking for bass tablatures for "Pagan Baby"...
Can anybody recommend a page or whatever, where i can find them...????
Thanx
W.
Well, I've learned this by ear, it's really simple though:
Standard tuning and in the key of E:

Main riff:
G---------------------|
D---------------------|
A-7-7-7-7-7-7-7-5-|
E---------------------|

From E to A and D part: (Stu is adding some slides in between at times)
A-7-7-7-7-7-7-7-7---------------------5-5-5-5-5-5-5-5-|-7 ...
E---------------------5-5-5-5-5-5-5-5---------------------|--

Variation of the riff:
D--------------7---5---|--------------5---7---|
A-7-7-7-7-7-----------|-7-7-7-7-7----------|

Variation no.2 (bends)
D-----------7b--7b--5-|
A-7-7-7-7--------------|

Another version (this only played ONCE in the song)
D-----7--57--57575--|
A-7------------------7-|

Some of the licks:
G---------------77-7---|--------------------77--7-|
D----------7h9-------7-|------7---9---7h9--------|
A-7----------------------|-7------------------------|
Reply With Quote